ISO-10303-21;
HEADER;
/* Generated by software containing ST-Developer
 * from STEP Tools, Inc. (www.steptools.com) 
 */
/* OPTION: strings as raw bytes, not using required /X/ escapes */

FILE_DESCRIPTION(
/* description */ ('Unknown'),
/* implementation_level */ '2;1');

FILE_NAME(
/* name */ 'T-0000347-Adapterplatte-Digianzeige-klein',
/* time_stamp */ '2020-04-02T16:50:05+02:00',
/* author */ ('Unknown'),
/* organization */ ('Unknown'),
/* preprocessor_version */ 'ST-DEVELOPER v16.7',
/* originating_system */ 'Solid Edge',
/* authorisation */ 'Unknown');

FILE_SCHEMA (('AUTOMOTIVE_DESIGN {1 0 10303 214 3 1 1}'));
ENDSEC;

DATA;
#10=PROPERTY_DEFINITION_REPRESENTATION(#14,#12);
#11=PROPERTY_DEFINITION_REPRESENTATION(#15,#13);
#12=REPRESENTATION('',(#16),#507);
#13=REPRESENTATION('',(#17),#507);
#14=PROPERTY_DEFINITION('pmi validation property','',#512);
#15=PROPERTY_DEFINITION('pmi validation property','',#512);
#16=VALUE_REPRESENTATION_ITEM('number of annotations',COUNT_MEASURE(0.));
#17=VALUE_REPRESENTATION_ITEM('number of views',COUNT_MEASURE(0.));
#18=SHAPE_REPRESENTATION_RELATIONSHIP('','',#310,#19);
#19=ADVANCED_BREP_SHAPE_REPRESENTATION('',(#308),#507);
#20=CYLINDRICAL_SURFACE('',#314,3.05);
#21=CYLINDRICAL_SURFACE('',#328,6.);
#22=CYLINDRICAL_SURFACE('',#336,5.);
#23=CYLINDRICAL_SURFACE('',#337,5.);
#24=CYLINDRICAL_SURFACE('',#338,0.2);
#25=CYLINDRICAL_SURFACE('',#339,0.2);
#26=LINE('',#429,#52);
#27=LINE('',#431,#53);
#28=LINE('',#435,#54);
#29=LINE('',#439,#55);
#30=LINE('',#442,#56);
#31=LINE('',#444,#57);
#32=LINE('',#448,#58);
#33=LINE('',#454,#59);
#34=LINE('',#459,#60);
#35=LINE('',#463,#61);
#36=LINE('',#467,#62);
#37=LINE('',#471,#63);
#38=LINE('',#473,#64);
#39=LINE('',#474,#65);
#40=LINE('',#476,#66);
#41=LINE('',#478,#67);
#42=LINE('',#480,#68);
#43=LINE('',#481,#69);
#44=LINE('',#486,#70);
#45=LINE('',#487,#71);
#46=LINE('',#489,#72);
#47=LINE('',#491,#73);
#48=LINE('',#492,#74);
#49=LINE('',#494,#75);
#50=LINE('',#496,#76);
#51=LINE('',#498,#77);
#52=VECTOR('',#346,1000.);
#53=VECTOR('',#349,1000.);
#54=VECTOR('',#352,1000.);
#55=VECTOR('',#357,1000.);
#56=VECTOR('',#358,1000.);
#57=VECTOR('',#359,1000.);
#58=VECTOR('',#362,1000.);
#59=VECTOR('',#369,1000.);
#60=VECTOR('',#372,1000.);
#61=VECTOR('',#375,1000.);
#62=VECTOR('',#378,1000.);
#63=VECTOR('',#383,1000.);
#64=VECTOR('',#384,1000.);
#65=VECTOR('',#385,1000.);
#66=VECTOR('',#386,1000.);
#67=VECTOR('',#389,1000.);
#68=VECTOR('',#390,1000.);
#69=VECTOR('',#391,1000.);
#70=VECTOR('',#398,1000.);
#71=VECTOR('',#399,1000.);
#72=VECTOR('',#400,1000.);
#73=VECTOR('',#403,1000.);
#74=VECTOR('',#404,1000.);
#75=VECTOR('',#407,1000.);
#76=VECTOR('',#408,1000.);
#77=VECTOR('',#409,1000.);
#78=ORIENTED_EDGE('',*,*,#156,.T.);
#79=ORIENTED_EDGE('',*,*,#157,.T.);
#80=ORIENTED_EDGE('',*,*,#158,.T.);
#81=ORIENTED_EDGE('',*,*,#159,.T.);
#82=ORIENTED_EDGE('',*,*,#160,.T.);
#83=ORIENTED_EDGE('',*,*,#156,.F.);
#84=ORIENTED_EDGE('',*,*,#161,.F.);
#85=ORIENTED_EDGE('',*,*,#162,.T.);
#86=ORIENTED_EDGE('',*,*,#163,.F.);
#87=ORIENTED_EDGE('',*,*,#164,.T.);
#88=ORIENTED_EDGE('',*,*,#165,.T.);
#89=ORIENTED_EDGE('',*,*,#166,.T.);
#90=ORIENTED_EDGE('',*,*,#167,.T.);
#91=ORIENTED_EDGE('',*,*,#168,.T.);
#92=ORIENTED_EDGE('',*,*,#169,.F.);
#93=ORIENTED_EDGE('',*,*,#170,.T.);
#94=ORIENTED_EDGE('',*,*,#171,.F.);
#95=ORIENTED_EDGE('',*,*,#172,.T.);
#96=ORIENTED_EDGE('',*,*,#173,.F.);
#97=ORIENTED_EDGE('',*,*,#174,.T.);
#98=ORIENTED_EDGE('',*,*,#175,.F.);
#99=ORIENTED_EDGE('',*,*,#176,.T.);
#100=ORIENTED_EDGE('',*,*,#161,.T.);
#101=ORIENTED_EDGE('',*,*,#157,.F.);
#102=ORIENTED_EDGE('',*,*,#160,.F.);
#103=ORIENTED_EDGE('',*,*,#177,.F.);
#104=ORIENTED_EDGE('',*,*,#178,.F.);
#105=ORIENTED_EDGE('',*,*,#163,.T.);
#106=ORIENTED_EDGE('',*,*,#179,.T.);
#107=ORIENTED_EDGE('',*,*,#180,.F.);
#108=ORIENTED_EDGE('',*,*,#158,.F.);
#109=ORIENTED_EDGE('',*,*,#181,.T.);
#110=ORIENTED_EDGE('',*,*,#182,.F.);
#111=ORIENTED_EDGE('',*,*,#179,.F.);
#112=ORIENTED_EDGE('',*,*,#162,.F.);
#113=ORIENTED_EDGE('',*,*,#183,.T.);
#114=ORIENTED_EDGE('',*,*,#173,.T.);
#115=ORIENTED_EDGE('',*,*,#168,.F.);
#116=ORIENTED_EDGE('',*,*,#184,.F.);
#117=ORIENTED_EDGE('',*,*,#185,.T.);
#118=ORIENTED_EDGE('',*,*,#164,.F.);
#119=ORIENTED_EDGE('',*,*,#178,.T.);
#120=ORIENTED_EDGE('',*,*,#186,.T.);
#121=ORIENTED_EDGE('',*,*,#187,.T.);
#122=ORIENTED_EDGE('',*,*,#169,.T.);
#123=ORIENTED_EDGE('',*,*,#188,.T.);
#124=ORIENTED_EDGE('',*,*,#166,.F.);
#125=ORIENTED_EDGE('',*,*,#189,.T.);
#126=ORIENTED_EDGE('',*,*,#175,.T.);
#127=ORIENTED_EDGE('',*,*,#190,.T.);
#128=ORIENTED_EDGE('',*,*,#191,.T.);
#129=ORIENTED_EDGE('',*,*,#192,.T.);
#130=ORIENTED_EDGE('',*,*,#171,.T.);
#131=ORIENTED_EDGE('',*,*,#191,.F.);
#132=ORIENTED_EDGE('',*,*,#193,.T.);
#133=ORIENTED_EDGE('',*,*,#186,.F.);
#134=ORIENTED_EDGE('',*,*,#177,.T.);
#135=ORIENTED_EDGE('',*,*,#159,.F.);
#136=ORIENTED_EDGE('',*,*,#180,.T.);
#137=ORIENTED_EDGE('',*,*,#182,.T.);
#138=ORIENTED_EDGE('',*,*,#194,.T.);
#139=ORIENTED_EDGE('',*,*,#184,.T.);
#140=ORIENTED_EDGE('',*,*,#174,.F.);
#141=ORIENTED_EDGE('',*,*,#183,.F.);
#142=ORIENTED_EDGE('',*,*,#167,.F.);
#143=ORIENTED_EDGE('',*,*,#188,.F.);
#144=ORIENTED_EDGE('',*,*,#176,.F.);
#145=ORIENTED_EDGE('',*,*,#189,.F.);
#146=ORIENTED_EDGE('',*,*,#165,.F.);
#147=ORIENTED_EDGE('',*,*,#185,.F.);
#148=ORIENTED_EDGE('',*,*,#172,.F.);
#149=ORIENTED_EDGE('',*,*,#192,.F.);
#150=ORIENTED_EDGE('',*,*,#194,.F.);
#151=ORIENTED_EDGE('',*,*,#181,.F.);
#152=ORIENTED_EDGE('',*,*,#170,.F.);
#153=ORIENTED_EDGE('',*,*,#187,.F.);
#154=ORIENTED_EDGE('',*,*,#193,.F.);
#155=ORIENTED_EDGE('',*,*,#190,.F.);
#156=EDGE_CURVE('',#195,#196,#222,.T.);
#157=EDGE_CURVE('',#196,#195,#26,.T.);
#158=EDGE_CURVE('',#195,#197,#27,.T.);
#159=EDGE_CURVE('',#197,#198,#223,.F.);
#160=EDGE_CURVE('',#198,#196,#28,.F.);
#161=EDGE_CURVE('',#199,#199,#224,.T.);
#162=EDGE_CURVE('',#200,#201,#29,.T.);
#163=EDGE_CURVE('',#202,#201,#30,.T.);
#164=EDGE_CURVE('',#202,#203,#31,.T.);
#165=EDGE_CURVE('',#203,#204,#225,.T.);
#166=EDGE_CURVE('',#204,#205,#32,.T.);
#167=EDGE_CURVE('',#205,#200,#226,.T.);
#168=EDGE_CURVE('',#206,#206,#227,.T.);
#169=EDGE_CURVE('',#207,#208,#33,.T.);
#170=EDGE_CURVE('',#207,#209,#228,.F.);
#171=EDGE_CURVE('',#210,#209,#34,.T.);
#172=EDGE_CURVE('',#210,#211,#229,.F.);
#173=EDGE_CURVE('',#212,#211,#35,.T.);
#174=EDGE_CURVE('',#212,#213,#230,.F.);
#175=EDGE_CURVE('',#214,#213,#36,.T.);
#176=EDGE_CURVE('',#214,#208,#231,.F.);
#177=EDGE_CURVE('',#215,#198,#37,.T.);
#178=EDGE_CURVE('',#202,#215,#38,.T.);
#179=EDGE_CURVE('',#201,#216,#39,.T.);
#180=EDGE_CURVE('',#197,#216,#40,.T.);
#181=EDGE_CURVE('',#211,#217,#41,.T.);
#182=EDGE_CURVE('',#216,#217,#42,.T.);
#183=EDGE_CURVE('',#200,#212,#43,.T.);
#184=EDGE_CURVE('',#218,#218,#232,.T.);
#185=EDGE_CURVE('',#208,#203,#44,.F.);
#186=EDGE_CURVE('',#215,#219,#45,.T.);
#187=EDGE_CURVE('',#219,#207,#46,.F.);
#188=EDGE_CURVE('',#213,#205,#47,.F.);
#189=EDGE_CURVE('',#204,#214,#48,.T.);
#190=EDGE_CURVE('',#209,#220,#49,.T.);
#191=EDGE_CURVE('',#220,#221,#50,.T.);
#192=EDGE_CURVE('',#221,#210,#51,.F.);
#193=EDGE_CURVE('',#220,#219,#233,.F.);
#194=EDGE_CURVE('',#217,#221,#234,.F.);
#195=VERTEX_POINT('',#427);
#196=VERTEX_POINT('',#428);
#197=VERTEX_POINT('',#432);
#198=VERTEX_POINT('',#434);
#199=VERTEX_POINT('',#437);
#200=VERTEX_POINT('',#440);
#201=VERTEX_POINT('',#441);
#202=VERTEX_POINT('',#443);
#203=VERTEX_POINT('',#445);
#204=VERTEX_POINT('',#447);
#205=VERTEX_POINT('',#449);
#206=VERTEX_POINT('',#453);
#207=VERTEX_POINT('',#455);
#208=VERTEX_POINT('',#456);
#209=VERTEX_POINT('',#458);
#210=VERTEX_POINT('',#460);
#211=VERTEX_POINT('',#462);
#212=VERTEX_POINT('',#464);
#213=VERTEX_POINT('',#466);
#214=VERTEX_POINT('',#468);
#215=VERTEX_POINT('',#472);
#216=VERTEX_POINT('',#475);
#217=VERTEX_POINT('',#479);
#218=VERTEX_POINT('',#484);
#219=VERTEX_POINT('',#488);
#220=VERTEX_POINT('',#495);
#221=VERTEX_POINT('',#497);
#222=CIRCLE('',#313,3.05);
#223=CIRCLE('',#315,3.05);
#224=CIRCLE('',#316,3.05);
#225=CIRCLE('',#318,5.);
#226=CIRCLE('',#319,5.);
#227=CIRCLE('',#321,6.);
#228=CIRCLE('',#322,0.2);
#229=CIRCLE('',#323,0.2);
#230=CIRCLE('',#324,5.);
#231=CIRCLE('',#325,5.);
#232=CIRCLE('',#329,6.);
#233=CIRCLE('',#334,0.2);
#234=CIRCLE('',#335,0.2);
#235=EDGE_LOOP('',(#78,#79));
#236=EDGE_LOOP('',(#80,#81,#82,#83));
#237=EDGE_LOOP('',(#84));
#238=EDGE_LOOP('',(#85,#86,#87,#88,#89,#90));
#239=EDGE_LOOP('',(#91));
#240=EDGE_LOOP('',(#92,#93,#94,#95,#96,#97,#98,#99));
#241=EDGE_LOOP('',(#100));
#242=EDGE_LOOP('',(#101,#102,#103,#104,#105,#106,#107,#108));
#243=EDGE_LOOP('',(#109,#110,#111,#112,#113,#114));
#244=EDGE_LOOP('',(#115));
#245=EDGE_LOOP('',(#116));
#246=EDGE_LOOP('',(#117,#118,#119,#120,#121,#122));
#247=EDGE_LOOP('',(#123,#124,#125,#126));
#248=EDGE_LOOP('',(#127,#128,#129,#130));
#249=EDGE_LOOP('',(#131,#132,#133,#134,#135,#136,#137,#138));
#250=EDGE_LOOP('',(#139));
#251=EDGE_LOOP('',(#140,#141,#142,#143));
#252=EDGE_LOOP('',(#144,#145,#146,#147));
#253=EDGE_LOOP('',(#148,#149,#150,#151));
#254=EDGE_LOOP('',(#152,#153,#154,#155));
#255=FACE_BOUND('',#235,.T.);
#256=FACE_BOUND('',#236,.T.);
#257=FACE_BOUND('',#237,.T.);
#258=FACE_BOUND('',#238,.T.);
#259=FACE_BOUND('',#239,.T.);
#260=FACE_BOUND('',#240,.T.);
#261=FACE_BOUND('',#241,.T.);
#262=FACE_BOUND('',#242,.T.);
#263=FACE_BOUND('',#243,.T.);
#264=FACE_BOUND('',#244,.T.);
#265=FACE_BOUND('',#245,.T.);
#266=FACE_BOUND('',#246,.T.);
#267=FACE_BOUND('',#247,.T.);
#268=FACE_BOUND('',#248,.T.);
#269=FACE_BOUND('',#249,.T.);
#270=FACE_BOUND('',#250,.T.);
#271=FACE_BOUND('',#251,.T.);
#272=FACE_BOUND('',#252,.T.);
#273=FACE_BOUND('',#253,.T.);
#274=FACE_BOUND('',#254,.T.);
#275=PLANE('',#312);
#276=PLANE('',#317);
#277=PLANE('',#320);
#278=PLANE('',#326);
#279=PLANE('',#327);
#280=PLANE('',#330);
#281=PLANE('',#331);
#282=PLANE('',#332);
#283=PLANE('',#333);
#284=ADVANCED_FACE('',(#255),#275,.T.);
#285=ADVANCED_FACE('',(#256,#257),#20,.F.);
#286=ADVANCED_FACE('',(#258),#276,.T.);
#287=ADVANCED_FACE('',(#259,#260,#261),#277,.F.);
#288=ADVANCED_FACE('',(#262),#278,.F.);
#289=ADVANCED_FACE('',(#263),#279,.F.);
#290=ADVANCED_FACE('',(#264,#265),#21,.F.);
#291=ADVANCED_FACE('',(#266),#280,.F.);
#292=ADVANCED_FACE('',(#267),#281,.F.);
#293=ADVANCED_FACE('',(#268),#282,.F.);
#294=ADVANCED_FACE('',(#269,#270),#283,.F.);
#295=ADVANCED_FACE('',(#271),#22,.T.);
#296=ADVANCED_FACE('',(#272),#23,.T.);
#297=ADVANCED_FACE('',(#273),#24,.T.);
#298=ADVANCED_FACE('',(#274),#25,.T.);
#299=CLOSED_SHELL('',(#284,#285,#286,#287,#288,#289,#290,#291,#292,#293,
#294,#295,#296,#297,#298));
#300=STYLED_ITEM('',(#301),#308);
#301=PRESENTATION_STYLE_ASSIGNMENT((#302));
#302=SURFACE_STYLE_USAGE(.BOTH.,#303);
#303=SURFACE_SIDE_STYLE('',(#304));
#304=SURFACE_STYLE_FILL_AREA(#305);
#305=FILL_AREA_STYLE('',(#306));
#306=FILL_AREA_STYLE_COLOUR('',#307);
#307=COLOUR_RGB('',0.200000002980232,0.200000002980232,0.200000002980232);
#308=MANIFOLD_SOLID_BREP('',#299);
#309=SHAPE_DEFINITION_REPRESENTATION(#512,#310);
#310=SHAPE_REPRESENTATION(
'T-0000347-Adapterplatte-Digianzeige-klein -dy',(#311),#507);
#311=AXIS2_PLACEMENT_3D('',#424,#340,#341);
#312=AXIS2_PLACEMENT_3D('',#425,#342,#343);
#313=AXIS2_PLACEMENT_3D('',#426,#344,#345);
#314=AXIS2_PLACEMENT_3D('',#430,#347,#348);
#315=AXIS2_PLACEMENT_3D('',#433,#350,#351);
#316=AXIS2_PLACEMENT_3D('',#436,#353,#354);
#317=AXIS2_PLACEMENT_3D('',#438,#355,#356);
#318=AXIS2_PLACEMENT_3D('',#446,#360,#361);
#319=AXIS2_PLACEMENT_3D('',#450,#363,#364);
#320=AXIS2_PLACEMENT_3D('',#451,#365,#366);
#321=AXIS2_PLACEMENT_3D('',#452,#367,#368);
#322=AXIS2_PLACEMENT_3D('',#457,#370,#371);
#323=AXIS2_PLACEMENT_3D('',#461,#373,#374);
#324=AXIS2_PLACEMENT_3D('',#465,#376,#377);
#325=AXIS2_PLACEMENT_3D('',#469,#379,#380);
#326=AXIS2_PLACEMENT_3D('',#470,#381,#382);
#327=AXIS2_PLACEMENT_3D('',#477,#387,#388);
#328=AXIS2_PLACEMENT_3D('',#482,#392,#393);
#329=AXIS2_PLACEMENT_3D('',#483,#394,#395);
#330=AXIS2_PLACEMENT_3D('',#485,#396,#397);
#331=AXIS2_PLACEMENT_3D('',#490,#401,#402);
#332=AXIS2_PLACEMENT_3D('',#493,#405,#406);
#333=AXIS2_PLACEMENT_3D('',#499,#410,#411);
#334=AXIS2_PLACEMENT_3D('',#500,#412,#413);
#335=AXIS2_PLACEMENT_3D('',#501,#414,#415);
#336=AXIS2_PLACEMENT_3D('',#502,#416,#417);
#337=AXIS2_PLACEMENT_3D('',#503,#418,#419);
#338=AXIS2_PLACEMENT_3D('',#504,#420,#421);
#339=AXIS2_PLACEMENT_3D('',#505,#422,#423);
#340=DIRECTION('',(0.,0.,1.));
#341=DIRECTION('',(1.,0.,0.));
#342=DIRECTION('',(0.,-1.,0.));
#343=DIRECTION('',(0.,0.,-1.));
#344=DIRECTION('',(0.,-1.,0.));
#345=DIRECTION('',(0.,0.,-1.));
#346=DIRECTION('',(1.,0.,0.));
#347=DIRECTION('',(0.,-1.,0.));
#348=DIRECTION('',(0.,0.,-1.));
#349=DIRECTION('',(0.,-1.,0.));
#350=DIRECTION('',(0.,-1.,-1.81866170868536E-16));
#351=DIRECTION('',(0.,1.81866170868536E-16,-1.));
#352=DIRECTION('',(0.,-1.,0.));
#353=DIRECTION('',(0.,1.,0.));
#354=DIRECTION('',(1.,0.,0.));
#355=DIRECTION('',(0.,1.,0.));
#356=DIRECTION('',(0.,0.,1.));
#357=DIRECTION('',(0.,0.,-1.));
#358=DIRECTION('',(1.,0.,0.));
#359=DIRECTION('',(0.,0.,1.));
#360=DIRECTION('',(0.,1.,0.));
#361=DIRECTION('',(0.,0.,1.));
#362=DIRECTION('',(1.,0.,0.));
#363=DIRECTION('',(0.,1.,0.));
#364=DIRECTION('',(0.,0.,1.));
#365=DIRECTION('',(0.,1.,0.));
#366=DIRECTION('',(0.,0.,1.));
#367=DIRECTION('',(0.,1.,0.));
#368=DIRECTION('',(1.,0.,0.));
#369=DIRECTION('',(0.,0.,1.));
#370=DIRECTION('',(0.,1.,0.));
#371=DIRECTION('',(0.,0.,1.));
#372=DIRECTION('',(-1.,0.,0.));
#373=DIRECTION('',(0.,1.,0.));
#374=DIRECTION('',(0.,0.,1.));
#375=DIRECTION('',(0.,0.,-1.));
#376=DIRECTION('',(0.,1.,0.));
#377=DIRECTION('',(0.,0.,1.));
#378=DIRECTION('',(1.,0.,0.));
#379=DIRECTION('',(0.,1.,0.));
#380=DIRECTION('',(0.,0.,1.));
#381=DIRECTION('',(0.,0.,1.));
#382=DIRECTION('',(1.,0.,0.));
#383=DIRECTION('',(1.,0.,0.));
#384=DIRECTION('',(0.,-1.,0.));
#385=DIRECTION('',(0.,-1.,0.));
#386=DIRECTION('',(1.,0.,0.));
#387=DIRECTION('',(-1.,0.,0.));
#388=DIRECTION('',(0.,0.,1.));
#389=DIRECTION('',(0.,1.,0.));
#390=DIRECTION('',(0.,1.81866170868536E-16,-1.));
#391=DIRECTION('',(0.,-1.,0.));
#392=DIRECTION('',(0.,-1.,0.));
#393=DIRECTION('',(0.,0.,-1.));
#394=DIRECTION('',(0.,-1.,-1.81866170868536E-16));
#395=DIRECTION('',(0.,1.81866170868536E-16,-1.));
#396=DIRECTION('',(1.,0.,0.));
#397=DIRECTION('',(0.,0.,-1.));
#398=DIRECTION('',(0.,-1.,0.));
#399=DIRECTION('',(0.,1.81866170868536E-16,-1.));
#400=DIRECTION('',(0.,1.,0.));
#401=DIRECTION('',(0.,0.,-1.));
#402=DIRECTION('',(-1.,0.,0.));
#403=DIRECTION('',(0.,-1.,0.));
#404=DIRECTION('',(0.,-1.,0.));
#405=DIRECTION('',(0.,0.,1.));
#406=DIRECTION('',(1.,0.,0.));
#407=DIRECTION('',(0.,1.,0.));
#408=DIRECTION('',(1.,0.,0.));
#409=DIRECTION('',(0.,1.,0.));
#410=DIRECTION('',(0.,-1.,-1.81866170868536E-16));
#411=DIRECTION('',(0.,1.81866170868536E-16,-1.));
#412=DIRECTION('',(0.,-1.,-1.81866170868536E-16));
#413=DIRECTION('',(0.,1.81866170868536E-16,-1.));
#414=DIRECTION('',(0.,-1.,-1.81866170868536E-16));
#415=DIRECTION('',(0.,1.81866170868536E-16,-1.));
#416=DIRECTION('',(0.,-1.,0.));
#417=DIRECTION('',(0.,0.,-1.));
#418=DIRECTION('',(0.,-1.,0.));
#419=DIRECTION('',(0.,0.,-1.));
#420=DIRECTION('',(0.,1.,0.));
#421=DIRECTION('',(0.,0.,1.));
#422=DIRECTION('',(0.,1.,0.));
#423=DIRECTION('',(0.,0.,1.));
#424=CARTESIAN_POINT('',(0.,0.,0.));
#425=CARTESIAN_POINT('',(0.,7.5,0.));
#426=CARTESIAN_POINT('',(-1.10218211923262E-15,7.5,18.));
#427=CARTESIAN_POINT('',(0.549999999999983,7.5,15.));
#428=CARTESIAN_POINT('',(-0.549999999999985,7.5,15.));
#429=CARTESIAN_POINT('',(-77.8446133123552,7.5,15.));
#430=CARTESIAN_POINT('',(-1.10218211923262E-15,6.,18.));
#431=CARTESIAN_POINT('',(0.549999999999983,6.,15.));
#432=CARTESIAN_POINT('',(0.550000000000001,4.,15.));
#433=CARTESIAN_POINT('',(-1.34711147906209E-15,4.,18.));
#434=CARTESIAN_POINT('',(-0.550000000000004,4.,15.));
#435=CARTESIAN_POINT('',(-0.549999999999985,6.,15.));
#436=CARTESIAN_POINT('',(-1.10218211923262E-15,1.,18.));
#437=CARTESIAN_POINT('',(3.05,1.,18.));
#438=CARTESIAN_POINT('',(0.,8.,0.));
#439=CARTESIAN_POINT('',(15.,8.,23.5));
#440=CARTESIAN_POINT('',(15.,8.,22.5));
#441=CARTESIAN_POINT('',(15.,8.,15.));
#442=CARTESIAN_POINT('',(-77.8446133123552,8.,15.));
#443=CARTESIAN_POINT('',(-15.,8.,15.));
#444=CARTESIAN_POINT('',(-15.,8.,-23.5));
#445=CARTESIAN_POINT('',(-15.,8.,22.5));
#446=CARTESIAN_POINT('',(-10.,8.,22.5));
#447=CARTESIAN_POINT('',(-10.,8.,27.5));
#448=CARTESIAN_POINT('',(-16.,8.,27.5));
#449=CARTESIAN_POINT('',(10.,8.,27.5));
#450=CARTESIAN_POINT('',(10.,8.,22.5));
#451=CARTESIAN_POINT('',(0.,1.,0.));
#452=CARTESIAN_POINT('',(0.,1.,0.));
#453=CARTESIAN_POINT('',(6.,1.,0.));
#454=CARTESIAN_POINT('',(-15.,1.,-23.5));
#455=CARTESIAN_POINT('',(-15.,1.,-14.8));
#456=CARTESIAN_POINT('',(-15.,1.,22.5));
#457=CARTESIAN_POINT('',(-14.8,0.999999999999999,-14.8));
#458=CARTESIAN_POINT('',(-14.8,1.,-15.));
#459=CARTESIAN_POINT('',(16.,1.,-15.));
#460=CARTESIAN_POINT('',(14.8,1.,-15.));
#461=CARTESIAN_POINT('',(14.8,0.999999999999999,-14.8));
#462=CARTESIAN_POINT('',(15.,1.,-14.8));
#463=CARTESIAN_POINT('',(15.,1.,23.5));
#464=CARTESIAN_POINT('',(15.,1.,22.5));
#465=CARTESIAN_POINT('',(10.,0.999999999999999,22.5));
#466=CARTESIAN_POINT('',(10.,1.,27.5));
#467=CARTESIAN_POINT('',(-16.,1.,27.5));
#468=CARTESIAN_POINT('',(-10.,1.,27.5));
#469=CARTESIAN_POINT('',(-10.,0.999999999999999,22.5));
#470=CARTESIAN_POINT('',(-77.8446133123552,10.,15.));
#471=CARTESIAN_POINT('',(-77.8446133123552,4.,15.));
#472=CARTESIAN_POINT('',(-15.,4.,15.));
#473=CARTESIAN_POINT('',(-15.,10.,15.));
#474=CARTESIAN_POINT('',(15.,10.,15.));
#475=CARTESIAN_POINT('',(15.,4.,15.));
#476=CARTESIAN_POINT('',(-77.8446133123552,4.,15.));
#477=CARTESIAN_POINT('',(15.,10.,23.5));
#478=CARTESIAN_POINT('',(15.,10.,-14.8));
#479=CARTESIAN_POINT('',(15.,4.00000000000001,-14.8));
#480=CARTESIAN_POINT('',(15.,4.,15.));
#481=CARTESIAN_POINT('',(15.,10.,22.5));
#482=CARTESIAN_POINT('',(0.,49.5725088704691,0.));
#483=CARTESIAN_POINT('',(0.,4.,0.));
#484=CARTESIAN_POINT('',(0.,4.,-6.));
#485=CARTESIAN_POINT('',(-15.,10.,-23.5));
#486=CARTESIAN_POINT('',(-15.,10.,22.5));
#487=CARTESIAN_POINT('',(-15.,4.00000000000001,-23.5));
#488=CARTESIAN_POINT('',(-15.,4.00000000000001,-14.8));
#489=CARTESIAN_POINT('',(-15.,10.,-14.8));
#490=CARTESIAN_POINT('',(-16.,10.,27.5));
#491=CARTESIAN_POINT('',(10.,10.,27.5));
#492=CARTESIAN_POINT('',(-10.,10.,27.5));
#493=CARTESIAN_POINT('',(16.,10.,-15.));
#494=CARTESIAN_POINT('',(-14.8,10.,-15.));
#495=CARTESIAN_POINT('',(-14.8,4.00000000000001,-15.));
#496=CARTESIAN_POINT('',(-77.8446133123552,4.00000000000001,-15.));
#497=CARTESIAN_POINT('',(14.8,4.00000000000001,-15.));
#498=CARTESIAN_POINT('',(14.8,10.,-15.));
#499=CARTESIAN_POINT('',(-77.8446133123552,4.,15.));
#500=CARTESIAN_POINT('',(-14.8,4.00000000000001,-14.8));
#501=CARTESIAN_POINT('',(14.8,4.00000000000001,-14.8));
#502=CARTESIAN_POINT('',(10.,10.,22.5));
#503=CARTESIAN_POINT('',(-10.,10.,22.5));
#504=CARTESIAN_POINT('',(14.8,10.,-14.8));
#505=CARTESIAN_POINT('',(-14.8,10.,-14.8));
#506=MECHANICAL_DESIGN_GEOMETRIC_PRESENTATION_REPRESENTATION('',(#300),
#507);
#507=(
GEOMETRIC_REPRESENTATION_CONTEXT(3)
GLOBAL_UNCERTAINTY_ASSIGNED_CONTEXT((#508))
GLOBAL_UNIT_ASSIGNED_CONTEXT((#511,#510,#509))
REPRESENTATION_CONTEXT('T-0000347-Adapterplatte-Digianzeige-klein -dy',
'TOP_LEVEL_ASSEMBLY_PART')
);
#508=UNCERTAINTY_MEASURE_WITH_UNIT(LENGTH_MEASURE(0.005),#511,
'DISTANCE_ACCURACY_VALUE','Maximum Tolerance applied to model');
#509=(
NAMED_UNIT(*)
SI_UNIT($,.STERADIAN.)
SOLID_ANGLE_UNIT()
);
#510=(
NAMED_UNIT(*)
PLANE_ANGLE_UNIT()
SI_UNIT($,.RADIAN.)
);
#511=(
LENGTH_UNIT()
NAMED_UNIT(*)
SI_UNIT(.MILLI.,.METRE.)
);
#512=PRODUCT_DEFINITION_SHAPE('','',#513);
#513=PRODUCT_DEFINITION('','',#515,#514);
#514=PRODUCT_DEFINITION_CONTEXT('',#521,'design');
#515=PRODUCT_DEFINITION_FORMATION_WITH_SPECIFIED_SOURCE('','',#517,
 .NOT_KNOWN.);
#516=PRODUCT_RELATED_PRODUCT_CATEGORY('','',(#517));
#517=PRODUCT('T-0000347-Adapterplatte-Digianzeige-klein -dy',
'T-0000347-Adapterplatte-Digianzeige-klein -dy',
'T-0000347-Adapterplatte-Digianzeige-klein -dy',(#519));
#518=PRODUCT_CATEGORY('','');
#519=PRODUCT_CONTEXT('',#521,'mechanical');
#520=APPLICATION_PROTOCOL_DEFINITION('international standard',
'automotive_design',2010,#521);
#521=APPLICATION_CONTEXT(
'core data for automotive mechanical design processes');
ENDSEC;
END-ISO-10303-21;
