ISO-10303-21;
HEADER;
/* Generated by software containing ST-Developer
 * from STEP Tools, Inc. (www.steptools.com) 
 */
/* OPTION: strings as raw bytes, not using required /X/ escapes */

FILE_DESCRIPTION(
/* description */ ('Unknown'),
/* implementation_level */ '2;1');

FILE_NAME(
/* name */ 'T-0000341-Adapterplatte-30-Digitalanzeige',
/* time_stamp */ '2020-04-02T16:48:47+02:00',
/* author */ ('Unknown'),
/* organization */ ('Unknown'),
/* preprocessor_version */ 'ST-DEVELOPER v16.7',
/* originating_system */ 'Solid Edge',
/* authorisation */ 'Unknown');

FILE_SCHEMA (('AUTOMOTIVE_DESIGN {1 0 10303 214 3 1 1}'));
ENDSEC;

DATA;
#10=PROPERTY_DEFINITION_REPRESENTATION(#14,#12);
#11=PROPERTY_DEFINITION_REPRESENTATION(#15,#13);
#12=REPRESENTATION('',(#16),#557);
#13=REPRESENTATION('',(#17),#557);
#14=PROPERTY_DEFINITION('pmi validation property','',#562);
#15=PROPERTY_DEFINITION('pmi validation property','',#562);
#16=VALUE_REPRESENTATION_ITEM('number of annotations',COUNT_MEASURE(0.));
#17=VALUE_REPRESENTATION_ITEM('number of views',COUNT_MEASURE(0.));
#18=SHAPE_REPRESENTATION_RELATIONSHIP('','',#337,#19);
#19=ADVANCED_BREP_SHAPE_REPRESENTATION('',(#335),#557);
#20=PLANE('',#344);
#21=PLANE('',#347);
#22=PLANE('',#356);
#23=PLANE('',#357);
#24=PLANE('',#360);
#25=PLANE('',#361);
#26=PLANE('',#362);
#27=PLANE('',#363);
#28=PLANE('',#370);
#29=LINE('',#470,#57);
#30=LINE('',#474,#58);
#31=LINE('',#478,#59);
#32=LINE('',#482,#60);
#33=LINE('',#484,#61);
#34=LINE('',#487,#62);
#35=LINE('',#489,#63);
#36=LINE('',#493,#64);
#37=LINE('',#499,#65);
#38=LINE('',#504,#66);
#39=LINE('',#508,#67);
#40=LINE('',#512,#68);
#41=LINE('',#519,#69);
#42=LINE('',#521,#70);
#43=LINE('',#522,#71);
#44=LINE('',#523,#72);
#45=LINE('',#525,#73);
#46=LINE('',#527,#74);
#47=LINE('',#529,#75);
#48=LINE('',#530,#76);
#49=LINE('',#535,#77);
#50=LINE('',#537,#78);
#51=LINE('',#538,#79);
#52=LINE('',#540,#80);
#53=LINE('',#541,#81);
#54=LINE('',#543,#82);
#55=LINE('',#545,#83);
#56=LINE('',#547,#84);
#57=VECTOR('',#377,1000.);
#58=VECTOR('',#380,1000.);
#59=VECTOR('',#383,1000.);
#60=VECTOR('',#386,1000.);
#61=VECTOR('',#389,1000.);
#62=VECTOR('',#390,1000.);
#63=VECTOR('',#391,1000.);
#64=VECTOR('',#394,1000.);
#65=VECTOR('',#401,1000.);
#66=VECTOR('',#404,1000.);
#67=VECTOR('',#407,1000.);
#68=VECTOR('',#410,1000.);
#69=VECTOR('',#421,1000.);
#70=VECTOR('',#422,1000.);
#71=VECTOR('',#423,1000.);
#72=VECTOR('',#424,1000.);
#73=VECTOR('',#425,1000.);
#74=VECTOR('',#428,1000.);
#75=VECTOR('',#429,1000.);
#76=VECTOR('',#430,1000.);
#77=VECTOR('',#437,1000.);
#78=VECTOR('',#438,1000.);
#79=VECTOR('',#439,1000.);
#80=VECTOR('',#442,1000.);
#81=VECTOR('',#443,1000.);
#82=VECTOR('',#446,1000.);
#83=VECTOR('',#447,1000.);
#84=VECTOR('',#448,1000.);
#85=ORIENTED_EDGE('',*,*,#173,.F.);
#86=ORIENTED_EDGE('',*,*,#174,.T.);
#87=ORIENTED_EDGE('',*,*,#175,.T.);
#88=ORIENTED_EDGE('',*,*,#176,.T.);
#89=ORIENTED_EDGE('',*,*,#177,.F.);
#90=ORIENTED_EDGE('',*,*,#178,.F.);
#91=ORIENTED_EDGE('',*,*,#179,.F.);
#92=ORIENTED_EDGE('',*,*,#180,.F.);
#93=ORIENTED_EDGE('',*,*,#181,.T.);
#94=ORIENTED_EDGE('',*,*,#182,.F.);
#95=ORIENTED_EDGE('',*,*,#183,.T.);
#96=ORIENTED_EDGE('',*,*,#184,.T.);
#97=ORIENTED_EDGE('',*,*,#185,.T.);
#98=ORIENTED_EDGE('',*,*,#186,.T.);
#99=ORIENTED_EDGE('',*,*,#187,.T.);
#100=ORIENTED_EDGE('',*,*,#188,.F.);
#101=ORIENTED_EDGE('',*,*,#189,.T.);
#102=ORIENTED_EDGE('',*,*,#190,.F.);
#103=ORIENTED_EDGE('',*,*,#191,.T.);
#104=ORIENTED_EDGE('',*,*,#192,.F.);
#105=ORIENTED_EDGE('',*,*,#193,.T.);
#106=ORIENTED_EDGE('',*,*,#194,.F.);
#107=ORIENTED_EDGE('',*,*,#195,.T.);
#108=ORIENTED_EDGE('',*,*,#196,.T.);
#109=ORIENTED_EDGE('',*,*,#179,.T.);
#110=ORIENTED_EDGE('',*,*,#197,.F.);
#111=ORIENTED_EDGE('',*,*,#180,.T.);
#112=ORIENTED_EDGE('',*,*,#196,.F.);
#113=ORIENTED_EDGE('',*,*,#178,.T.);
#114=ORIENTED_EDGE('',*,*,#182,.T.);
#115=ORIENTED_EDGE('',*,*,#198,.T.);
#116=ORIENTED_EDGE('',*,*,#199,.F.);
#117=ORIENTED_EDGE('',*,*,#174,.F.);
#118=ORIENTED_EDGE('',*,*,#200,.F.);
#119=ORIENTED_EDGE('',*,*,#176,.F.);
#120=ORIENTED_EDGE('',*,*,#201,.F.);
#121=ORIENTED_EDGE('',*,*,#202,.F.);
#122=ORIENTED_EDGE('',*,*,#192,.T.);
#123=ORIENTED_EDGE('',*,*,#203,.T.);
#124=ORIENTED_EDGE('',*,*,#204,.F.);
#125=ORIENTED_EDGE('',*,*,#198,.F.);
#126=ORIENTED_EDGE('',*,*,#181,.F.);
#127=ORIENTED_EDGE('',*,*,#205,.T.);
#128=ORIENTED_EDGE('',*,*,#206,.F.);
#129=ORIENTED_EDGE('',*,*,#187,.F.);
#130=ORIENTED_EDGE('',*,*,#207,.T.);
#131=ORIENTED_EDGE('',*,*,#208,.T.);
#132=ORIENTED_EDGE('',*,*,#188,.T.);
#133=ORIENTED_EDGE('',*,*,#209,.T.);
#134=ORIENTED_EDGE('',*,*,#183,.F.);
#135=ORIENTED_EDGE('',*,*,#202,.T.);
#136=ORIENTED_EDGE('',*,*,#185,.F.);
#137=ORIENTED_EDGE('',*,*,#210,.T.);
#138=ORIENTED_EDGE('',*,*,#194,.T.);
#139=ORIENTED_EDGE('',*,*,#211,.T.);
#140=ORIENTED_EDGE('',*,*,#190,.T.);
#141=ORIENTED_EDGE('',*,*,#212,.T.);
#142=ORIENTED_EDGE('',*,*,#213,.T.);
#143=ORIENTED_EDGE('',*,*,#214,.T.);
#144=ORIENTED_EDGE('',*,*,#213,.F.);
#145=ORIENTED_EDGE('',*,*,#215,.T.);
#146=ORIENTED_EDGE('',*,*,#207,.F.);
#147=ORIENTED_EDGE('',*,*,#201,.T.);
#148=ORIENTED_EDGE('',*,*,#175,.F.);
#149=ORIENTED_EDGE('',*,*,#199,.T.);
#150=ORIENTED_EDGE('',*,*,#204,.T.);
#151=ORIENTED_EDGE('',*,*,#216,.T.);
#152=ORIENTED_EDGE('',*,*,#206,.T.);
#153=ORIENTED_EDGE('',*,*,#186,.F.);
#154=ORIENTED_EDGE('',*,*,#211,.F.);
#155=ORIENTED_EDGE('',*,*,#193,.F.);
#156=ORIENTED_EDGE('',*,*,#205,.F.);
#157=ORIENTED_EDGE('',*,*,#184,.F.);
#158=ORIENTED_EDGE('',*,*,#209,.F.);
#159=ORIENTED_EDGE('',*,*,#195,.F.);
#160=ORIENTED_EDGE('',*,*,#210,.F.);
#161=ORIENTED_EDGE('',*,*,#216,.F.);
#162=ORIENTED_EDGE('',*,*,#203,.F.);
#163=ORIENTED_EDGE('',*,*,#191,.F.);
#164=ORIENTED_EDGE('',*,*,#214,.F.);
#165=ORIENTED_EDGE('',*,*,#215,.F.);
#166=ORIENTED_EDGE('',*,*,#212,.F.);
#167=ORIENTED_EDGE('',*,*,#189,.F.);
#168=ORIENTED_EDGE('',*,*,#208,.F.);
#169=ORIENTED_EDGE('',*,*,#200,.T.);
#170=ORIENTED_EDGE('',*,*,#173,.T.);
#171=ORIENTED_EDGE('',*,*,#197,.T.);
#172=ORIENTED_EDGE('',*,*,#177,.T.);
#173=EDGE_CURVE('',#217,#218,#247,.T.);
#174=EDGE_CURVE('',#217,#219,#29,.T.);
#175=EDGE_CURVE('',#219,#220,#248,.F.);
#176=EDGE_CURVE('',#220,#221,#30,.F.);
#177=EDGE_CURVE('',#222,#221,#249,.T.);
#178=EDGE_CURVE('',#223,#222,#31,.F.);
#179=EDGE_CURVE('',#224,#223,#250,.T.);
#180=EDGE_CURVE('',#218,#224,#32,.T.);
#181=EDGE_CURVE('',#225,#226,#33,.T.);
#182=EDGE_CURVE('',#227,#226,#34,.T.);
#183=EDGE_CURVE('',#227,#228,#35,.T.);
#184=EDGE_CURVE('',#228,#229,#251,.T.);
#185=EDGE_CURVE('',#229,#230,#36,.T.);
#186=EDGE_CURVE('',#230,#225,#252,.T.);
#187=EDGE_CURVE('',#231,#231,#253,.T.);
#188=EDGE_CURVE('',#232,#233,#37,.T.);
#189=EDGE_CURVE('',#232,#234,#254,.F.);
#190=EDGE_CURVE('',#235,#234,#38,.T.);
#191=EDGE_CURVE('',#235,#236,#255,.F.);
#192=EDGE_CURVE('',#237,#236,#39,.T.);
#193=EDGE_CURVE('',#237,#238,#256,.F.);
#194=EDGE_CURVE('',#239,#238,#40,.T.);
#195=EDGE_CURVE('',#239,#233,#257,.F.);
#196=EDGE_CURVE('',#223,#224,#258,.T.);
#197=EDGE_CURVE('',#218,#222,#259,.T.);
#198=EDGE_CURVE('',#226,#240,#41,.T.);
#199=EDGE_CURVE('',#219,#240,#42,.T.);
#200=EDGE_CURVE('',#221,#217,#43,.T.);
#201=EDGE_CURVE('',#241,#220,#44,.T.);
#202=EDGE_CURVE('',#227,#241,#45,.T.);
#203=EDGE_CURVE('',#236,#242,#46,.T.);
#204=EDGE_CURVE('',#240,#242,#47,.T.);
#205=EDGE_CURVE('',#225,#237,#48,.T.);
#206=EDGE_CURVE('',#243,#243,#260,.T.);
#207=EDGE_CURVE('',#241,#244,#49,.T.);
#208=EDGE_CURVE('',#244,#232,#50,.F.);
#209=EDGE_CURVE('',#233,#228,#51,.F.);
#210=EDGE_CURVE('',#229,#239,#52,.T.);
#211=EDGE_CURVE('',#238,#230,#53,.F.);
#212=EDGE_CURVE('',#234,#245,#54,.T.);
#213=EDGE_CURVE('',#245,#246,#55,.T.);
#214=EDGE_CURVE('',#246,#235,#56,.F.);
#215=EDGE_CURVE('',#245,#244,#261,.F.);
#216=EDGE_CURVE('',#242,#246,#262,.F.);
#217=VERTEX_POINT('',#468);
#218=VERTEX_POINT('',#469);
#219=VERTEX_POINT('',#471);
#220=VERTEX_POINT('',#473);
#221=VERTEX_POINT('',#475);
#222=VERTEX_POINT('',#477);
#223=VERTEX_POINT('',#479);
#224=VERTEX_POINT('',#481);
#225=VERTEX_POINT('',#485);
#226=VERTEX_POINT('',#486);
#227=VERTEX_POINT('',#488);
#228=VERTEX_POINT('',#490);
#229=VERTEX_POINT('',#492);
#230=VERTEX_POINT('',#494);
#231=VERTEX_POINT('',#498);
#232=VERTEX_POINT('',#500);
#233=VERTEX_POINT('',#501);
#234=VERTEX_POINT('',#503);
#235=VERTEX_POINT('',#505);
#236=VERTEX_POINT('',#507);
#237=VERTEX_POINT('',#509);
#238=VERTEX_POINT('',#511);
#239=VERTEX_POINT('',#513);
#240=VERTEX_POINT('',#520);
#241=VERTEX_POINT('',#524);
#242=VERTEX_POINT('',#528);
#243=VERTEX_POINT('',#533);
#244=VERTEX_POINT('',#536);
#245=VERTEX_POINT('',#544);
#246=VERTEX_POINT('',#546);
#247=CIRCLE('',#340,3.05);
#248=CIRCLE('',#341,3.05);
#249=CIRCLE('',#342,3.05);
#250=CIRCLE('',#343,3.05);
#251=CIRCLE('',#345,5.);
#252=CIRCLE('',#346,5.);
#253=CIRCLE('',#348,6.);
#254=CIRCLE('',#349,4.);
#255=CIRCLE('',#350,4.);
#256=CIRCLE('',#351,5.);
#257=CIRCLE('',#352,5.);
#258=CIRCLE('',#353,3.05);
#259=CIRCLE('',#355,3.05);
#260=CIRCLE('',#359,6.);
#261=CIRCLE('',#364,4.);
#262=CIRCLE('',#365,4.);
#263=EDGE_LOOP('',(#85,#86,#87,#88,#89,#90,#91,#92));
#264=EDGE_LOOP('',(#93,#94,#95,#96,#97,#98));
#265=EDGE_LOOP('',(#99));
#266=EDGE_LOOP('',(#100,#101,#102,#103,#104,#105,#106,#107));
#267=EDGE_LOOP('',(#108,#109));
#268=EDGE_LOOP('',(#110,#111,#112,#113));
#269=EDGE_LOOP('',(#114,#115,#116,#117,#118,#119,#120,#121));
#270=EDGE_LOOP('',(#122,#123,#124,#125,#126,#127));
#271=EDGE_LOOP('',(#128));
#272=EDGE_LOOP('',(#129));
#273=EDGE_LOOP('',(#130,#131,#132,#133,#134,#135));
#274=EDGE_LOOP('',(#136,#137,#138,#139));
#275=EDGE_LOOP('',(#140,#141,#142,#143));
#276=EDGE_LOOP('',(#144,#145,#146,#147,#148,#149,#150,#151));
#277=EDGE_LOOP('',(#152));
#278=EDGE_LOOP('',(#153,#154,#155,#156));
#279=EDGE_LOOP('',(#157,#158,#159,#160));
#280=EDGE_LOOP('',(#161,#162,#163,#164));
#281=EDGE_LOOP('',(#165,#166,#167,#168));
#282=EDGE_LOOP('',(#169,#170,#171,#172));
#283=FACE_BOUND('',#263,.T.);
#284=FACE_BOUND('',#264,.T.);
#285=FACE_BOUND('',#265,.T.);
#286=FACE_BOUND('',#266,.T.);
#287=FACE_BOUND('',#267,.T.);
#288=FACE_BOUND('',#268,.T.);
#289=FACE_BOUND('',#269,.T.);
#290=FACE_BOUND('',#270,.T.);
#291=FACE_BOUND('',#271,.T.);
#292=FACE_BOUND('',#272,.T.);
#293=FACE_BOUND('',#273,.T.);
#294=FACE_BOUND('',#274,.T.);
#295=FACE_BOUND('',#275,.T.);
#296=FACE_BOUND('',#276,.T.);
#297=FACE_BOUND('',#277,.T.);
#298=FACE_BOUND('',#278,.T.);
#299=FACE_BOUND('',#279,.T.);
#300=FACE_BOUND('',#280,.T.);
#301=FACE_BOUND('',#281,.T.);
#302=FACE_BOUND('',#282,.T.);
#303=CYLINDRICAL_SURFACE('',#339,3.05);
#304=CYLINDRICAL_SURFACE('',#354,3.05);
#305=CYLINDRICAL_SURFACE('',#358,6.);
#306=CYLINDRICAL_SURFACE('',#366,5.);
#307=CYLINDRICAL_SURFACE('',#367,5.);
#308=CYLINDRICAL_SURFACE('',#368,4.);
#309=CYLINDRICAL_SURFACE('',#369,4.);
#310=ADVANCED_FACE('',(#283),#303,.F.);
#311=ADVANCED_FACE('',(#284),#20,.T.);
#312=ADVANCED_FACE('',(#285,#286,#287),#21,.F.);
#313=ADVANCED_FACE('',(#288),#304,.F.);
#314=ADVANCED_FACE('',(#289),#22,.F.);
#315=ADVANCED_FACE('',(#290),#23,.F.);
#316=ADVANCED_FACE('',(#291,#292),#305,.F.);
#317=ADVANCED_FACE('',(#293),#24,.F.);
#318=ADVANCED_FACE('',(#294),#25,.F.);
#319=ADVANCED_FACE('',(#295),#26,.F.);
#320=ADVANCED_FACE('',(#296,#297),#27,.F.);
#321=ADVANCED_FACE('',(#298),#306,.T.);
#322=ADVANCED_FACE('',(#299),#307,.T.);
#323=ADVANCED_FACE('',(#300),#308,.T.);
#324=ADVANCED_FACE('',(#301),#309,.T.);
#325=ADVANCED_FACE('',(#302),#28,.T.);
#326=CLOSED_SHELL('',(#310,#311,#312,#313,#314,#315,#316,#317,#318,#319,
#320,#321,#322,#323,#324,#325));
#327=STYLED_ITEM('',(#328),#335);
#328=PRESENTATION_STYLE_ASSIGNMENT((#329));
#329=SURFACE_STYLE_USAGE(.BOTH.,#330);
#330=SURFACE_SIDE_STYLE('',(#331));
#331=SURFACE_STYLE_FILL_AREA(#332);
#332=FILL_AREA_STYLE('',(#333));
#333=FILL_AREA_STYLE_COLOUR('',#334);
#334=COLOUR_RGB('',0.200000002980232,0.200000002980232,0.200000002980232);
#335=MANIFOLD_SOLID_BREP('',#326);
#336=SHAPE_DEFINITION_REPRESENTATION(#562,#337);
#337=SHAPE_REPRESENTATION(
'T-0000341-Adapterplatte-30-Digitalanzeige-dy',(#338),#557);
#338=AXIS2_PLACEMENT_3D('',#465,#371,#372);
#339=AXIS2_PLACEMENT_3D('',#466,#373,#374);
#340=AXIS2_PLACEMENT_3D('',#467,#375,#376);
#341=AXIS2_PLACEMENT_3D('',#472,#378,#379);
#342=AXIS2_PLACEMENT_3D('',#476,#381,#382);
#343=AXIS2_PLACEMENT_3D('',#480,#384,#385);
#344=AXIS2_PLACEMENT_3D('',#483,#387,#388);
#345=AXIS2_PLACEMENT_3D('',#491,#392,#393);
#346=AXIS2_PLACEMENT_3D('',#495,#395,#396);
#347=AXIS2_PLACEMENT_3D('',#496,#397,#398);
#348=AXIS2_PLACEMENT_3D('',#497,#399,#400);
#349=AXIS2_PLACEMENT_3D('',#502,#402,#403);
#350=AXIS2_PLACEMENT_3D('',#506,#405,#406);
#351=AXIS2_PLACEMENT_3D('',#510,#408,#409);
#352=AXIS2_PLACEMENT_3D('',#514,#411,#412);
#353=AXIS2_PLACEMENT_3D('',#515,#413,#414);
#354=AXIS2_PLACEMENT_3D('',#516,#415,#416);
#355=AXIS2_PLACEMENT_3D('',#517,#417,#418);
#356=AXIS2_PLACEMENT_3D('',#518,#419,#420);
#357=AXIS2_PLACEMENT_3D('',#526,#426,#427);
#358=AXIS2_PLACEMENT_3D('',#531,#431,#432);
#359=AXIS2_PLACEMENT_3D('',#532,#433,#434);
#360=AXIS2_PLACEMENT_3D('',#534,#435,#436);
#361=AXIS2_PLACEMENT_3D('',#539,#440,#441);
#362=AXIS2_PLACEMENT_3D('',#542,#444,#445);
#363=AXIS2_PLACEMENT_3D('',#548,#449,#450);
#364=AXIS2_PLACEMENT_3D('',#549,#451,#452);
#365=AXIS2_PLACEMENT_3D('',#550,#453,#454);
#366=AXIS2_PLACEMENT_3D('',#551,#455,#456);
#367=AXIS2_PLACEMENT_3D('',#552,#457,#458);
#368=AXIS2_PLACEMENT_3D('',#553,#459,#460);
#369=AXIS2_PLACEMENT_3D('',#554,#461,#462);
#370=AXIS2_PLACEMENT_3D('',#555,#463,#464);
#371=DIRECTION('',(0.,0.,1.));
#372=DIRECTION('',(1.,0.,0.));
#373=DIRECTION('',(0.,-1.,0.));
#374=DIRECTION('',(0.,0.,-1.));
#375=DIRECTION('',(0.,-1.,0.));
#376=DIRECTION('',(0.,0.,-1.));
#377=DIRECTION('',(0.,-1.,0.));
#378=DIRECTION('',(0.,-1.,-1.81866170868536E-16));
#379=DIRECTION('',(0.,1.81866170868536E-16,-1.));
#380=DIRECTION('',(0.,-1.,0.));
#381=DIRECTION('',(0.,-1.,0.));
#382=DIRECTION('',(0.,0.,-1.));
#383=DIRECTION('',(0.,-1.,0.));
#384=DIRECTION('',(0.,1.,0.));
#385=DIRECTION('',(1.,0.,0.));
#386=DIRECTION('',(0.,-1.,0.));
#387=DIRECTION('',(0.,1.,0.));
#388=DIRECTION('',(0.,0.,1.));
#389=DIRECTION('',(0.,0.,-1.));
#390=DIRECTION('',(1.,0.,0.));
#391=DIRECTION('',(0.,0.,1.));
#392=DIRECTION('',(0.,1.,0.));
#393=DIRECTION('',(0.,0.,1.));
#394=DIRECTION('',(1.,0.,0.));
#395=DIRECTION('',(0.,1.,0.));
#396=DIRECTION('',(0.,0.,1.));
#397=DIRECTION('',(0.,1.,0.));
#398=DIRECTION('',(0.,0.,1.));
#399=DIRECTION('',(0.,1.,0.));
#400=DIRECTION('',(1.,0.,0.));
#401=DIRECTION('',(0.,0.,1.));
#402=DIRECTION('',(0.,1.,0.));
#403=DIRECTION('',(0.,0.,1.));
#404=DIRECTION('',(-1.,0.,0.));
#405=DIRECTION('',(0.,1.,0.));
#406=DIRECTION('',(0.,0.,1.));
#407=DIRECTION('',(0.,0.,-1.));
#408=DIRECTION('',(0.,1.,0.));
#409=DIRECTION('',(0.,0.,1.));
#410=DIRECTION('',(1.,0.,0.));
#411=DIRECTION('',(0.,1.,0.));
#412=DIRECTION('',(0.,0.,1.));
#413=DIRECTION('',(0.,1.,0.));
#414=DIRECTION('',(1.,0.,0.));
#415=DIRECTION('',(0.,-1.,0.));
#416=DIRECTION('',(0.,0.,-1.));
#417=DIRECTION('',(0.,-1.,0.));
#418=DIRECTION('',(0.,0.,-1.));
#419=DIRECTION('',(0.,0.,1.));
#420=DIRECTION('',(1.,0.,0.));
#421=DIRECTION('',(0.,-1.,0.));
#422=DIRECTION('',(1.,0.,0.));
#423=DIRECTION('',(1.,0.,0.));
#424=DIRECTION('',(1.,0.,0.));
#425=DIRECTION('',(0.,-1.,0.));
#426=DIRECTION('',(-1.,0.,0.));
#427=DIRECTION('',(0.,0.,1.));
#428=DIRECTION('',(0.,1.,0.));
#429=DIRECTION('',(0.,1.81866170868536E-16,-1.));
#430=DIRECTION('',(0.,-1.,0.));
#431=DIRECTION('',(0.,-1.,0.));
#432=DIRECTION('',(0.,0.,-1.));
#433=DIRECTION('',(0.,-1.,-1.81866170868536E-16));
#434=DIRECTION('',(0.,1.81866170868536E-16,-1.));
#435=DIRECTION('',(1.,0.,0.));
#436=DIRECTION('',(0.,0.,-1.));
#437=DIRECTION('',(0.,1.81866170868536E-16,-1.));
#438=DIRECTION('',(0.,1.,0.));
#439=DIRECTION('',(0.,-1.,0.));
#440=DIRECTION('',(0.,0.,-1.));
#441=DIRECTION('',(-1.,0.,0.));
#442=DIRECTION('',(0.,-1.,0.));
#443=DIRECTION('',(0.,-1.,0.));
#444=DIRECTION('',(0.,0.,1.));
#445=DIRECTION('',(1.,0.,0.));
#446=DIRECTION('',(0.,1.,0.));
#447=DIRECTION('',(1.,0.,0.));
#448=DIRECTION('',(0.,1.,0.));
#449=DIRECTION('',(0.,-1.,-1.81866170868536E-16));
#450=DIRECTION('',(0.,1.81866170868536E-16,-1.));
#451=DIRECTION('',(0.,-1.,-1.81866170868536E-16));
#452=DIRECTION('',(0.,1.81866170868536E-16,-1.));
#453=DIRECTION('',(0.,-1.,-1.81866170868536E-16));
#454=DIRECTION('',(0.,1.81866170868536E-16,-1.));
#455=DIRECTION('',(0.,-1.,0.));
#456=DIRECTION('',(0.,0.,-1.));
#457=DIRECTION('',(0.,-1.,0.));
#458=DIRECTION('',(0.,0.,-1.));
#459=DIRECTION('',(0.,1.,0.));
#460=DIRECTION('',(0.,0.,1.));
#461=DIRECTION('',(0.,1.,0.));
#462=DIRECTION('',(0.,0.,1.));
#463=DIRECTION('',(0.,-1.,0.));
#464=DIRECTION('',(0.,0.,-1.));
#465=CARTESIAN_POINT('',(0.,0.,0.));
#466=CARTESIAN_POINT('',(-1.34711147906209E-15,6.,18.));
#467=CARTESIAN_POINT('',(-1.34711147906209E-15,7.5,18.));
#468=CARTESIAN_POINT('',(0.550000000000001,7.5,15.));
#469=CARTESIAN_POINT('',(2.30271578793389,7.5,20.));
#470=CARTESIAN_POINT('',(0.550000000000001,6.,15.));
#471=CARTESIAN_POINT('',(0.550000000000001,4.,15.));
#472=CARTESIAN_POINT('',(-1.34711147906209E-15,4.,18.));
#473=CARTESIAN_POINT('',(-0.550000000000004,4.,15.));
#474=CARTESIAN_POINT('',(-0.550000000000004,6.,15.));
#475=CARTESIAN_POINT('',(-0.550000000000013,7.5,15.));
#476=CARTESIAN_POINT('',(-1.34711147906209E-15,7.5,18.));
#477=CARTESIAN_POINT('',(-2.30271578793389,7.5,20.));
#478=CARTESIAN_POINT('',(-2.30271578793389,4.,20.));
#479=CARTESIAN_POINT('',(-2.30271578793389,1.,20.));
#480=CARTESIAN_POINT('',(-1.34711147906209E-15,1.,18.));
#481=CARTESIAN_POINT('',(2.30271578793389,1.,20.));
#482=CARTESIAN_POINT('',(2.30271578793389,4.,20.));
#483=CARTESIAN_POINT('',(0.,8.,0.));
#484=CARTESIAN_POINT('',(16.5,8.,23.5));
#485=CARTESIAN_POINT('',(16.5,8.,25.5));
#486=CARTESIAN_POINT('',(16.5,8.,15.));
#487=CARTESIAN_POINT('',(-77.8446133123552,8.,15.));
#488=CARTESIAN_POINT('',(-16.5,8.,15.));
#489=CARTESIAN_POINT('',(-16.5,8.,-23.5));
#490=CARTESIAN_POINT('',(-16.5,8.,25.5));
#491=CARTESIAN_POINT('',(-11.5,8.,25.5));
#492=CARTESIAN_POINT('',(-11.5,8.,30.5));
#493=CARTESIAN_POINT('',(-16.,8.,30.5));
#494=CARTESIAN_POINT('',(11.5,8.,30.5));
#495=CARTESIAN_POINT('',(11.5,8.,25.5));
#496=CARTESIAN_POINT('',(0.,1.,0.));
#497=CARTESIAN_POINT('',(0.,1.,0.));
#498=CARTESIAN_POINT('',(6.,1.,0.));
#499=CARTESIAN_POINT('',(-16.5,1.,-23.5));
#500=CARTESIAN_POINT('',(-16.5,1.,-12.));
#501=CARTESIAN_POINT('',(-16.5,1.,25.5));
#502=CARTESIAN_POINT('',(-12.5,0.999999999999999,-12.));
#503=CARTESIAN_POINT('',(-12.5,1.,-16.));
#504=CARTESIAN_POINT('',(16.,1.,-16.));
#505=CARTESIAN_POINT('',(12.5,1.,-16.));
#506=CARTESIAN_POINT('',(12.5,0.999999999999999,-12.));
#507=CARTESIAN_POINT('',(16.5,1.,-12.));
#508=CARTESIAN_POINT('',(16.5,1.,23.5));
#509=CARTESIAN_POINT('',(16.5,1.,25.5));
#510=CARTESIAN_POINT('',(11.5,0.999999999999999,25.5));
#511=CARTESIAN_POINT('',(11.5,1.,30.5));
#512=CARTESIAN_POINT('',(-16.,1.,30.5));
#513=CARTESIAN_POINT('',(-11.5,1.,30.5));
#514=CARTESIAN_POINT('',(-11.5,0.999999999999999,25.5));
#515=CARTESIAN_POINT('',(-1.34711147906209E-15,1.,22.));
#516=CARTESIAN_POINT('',(-1.34711147906209E-15,6.,22.));
#517=CARTESIAN_POINT('',(-1.34711147906209E-15,7.5,22.));
#518=CARTESIAN_POINT('',(-77.8446133123552,10.,15.));
#519=CARTESIAN_POINT('',(16.5,10.,15.));
#520=CARTESIAN_POINT('',(16.5,4.,15.));
#521=CARTESIAN_POINT('',(-77.8446133123552,4.,15.));
#522=CARTESIAN_POINT('',(-5.10533784229621,7.5,15.));
#523=CARTESIAN_POINT('',(-77.8446133123552,4.,15.));
#524=CARTESIAN_POINT('',(-16.5,4.,15.));
#525=CARTESIAN_POINT('',(-16.5,10.,15.));
#526=CARTESIAN_POINT('',(16.5,10.,23.5));
#527=CARTESIAN_POINT('',(16.5,10.,-12.));
#528=CARTESIAN_POINT('',(16.5,4.00000000000001,-12.));
#529=CARTESIAN_POINT('',(16.5,4.,15.));
#530=CARTESIAN_POINT('',(16.5,10.,25.5));
#531=CARTESIAN_POINT('',(0.,49.5725088704691,0.));
#532=CARTESIAN_POINT('',(0.,4.,0.));
#533=CARTESIAN_POINT('',(0.,4.,-6.));
#534=CARTESIAN_POINT('',(-16.5,10.,-23.5));
#535=CARTESIAN_POINT('',(-16.5,4.00000000000001,-23.5));
#536=CARTESIAN_POINT('',(-16.5,4.00000000000001,-12.));
#537=CARTESIAN_POINT('',(-16.5,10.,-12.));
#538=CARTESIAN_POINT('',(-16.5,10.,25.5));
#539=CARTESIAN_POINT('',(-16.,10.,30.5));
#540=CARTESIAN_POINT('',(-11.5,10.,30.5));
#541=CARTESIAN_POINT('',(11.5,10.,30.5));
#542=CARTESIAN_POINT('',(16.,10.,-16.));
#543=CARTESIAN_POINT('',(-12.5,10.,-16.));
#544=CARTESIAN_POINT('',(-12.5,4.00000000000001,-16.));
#545=CARTESIAN_POINT('',(-77.8446133123552,4.00000000000001,-16.));
#546=CARTESIAN_POINT('',(12.5,4.00000000000001,-16.));
#547=CARTESIAN_POINT('',(12.5,10.,-16.));
#548=CARTESIAN_POINT('',(-77.8446133123552,4.,15.));
#549=CARTESIAN_POINT('',(-12.5,4.00000000000001,-12.));
#550=CARTESIAN_POINT('',(12.5,4.00000000000001,-12.));
#551=CARTESIAN_POINT('',(11.5,10.,25.5));
#552=CARTESIAN_POINT('',(-11.5,10.,25.5));
#553=CARTESIAN_POINT('',(12.5,10.,-12.));
#554=CARTESIAN_POINT('',(-12.5,10.,-12.));
#555=CARTESIAN_POINT('',(0.,7.5,0.));
#556=MECHANICAL_DESIGN_GEOMETRIC_PRESENTATION_REPRESENTATION('',(#327),
#557);
#557=(
GEOMETRIC_REPRESENTATION_CONTEXT(3)
GLOBAL_UNCERTAINTY_ASSIGNED_CONTEXT((#558))
GLOBAL_UNIT_ASSIGNED_CONTEXT((#561,#560,#559))
REPRESENTATION_CONTEXT('T-0000341-Adapterplatte-30-Digitalanzeige-dy',
'TOP_LEVEL_ASSEMBLY_PART')
);
#558=UNCERTAINTY_MEASURE_WITH_UNIT(LENGTH_MEASURE(0.005),#561,
'DISTANCE_ACCURACY_VALUE','Maximum Tolerance applied to model');
#559=(
NAMED_UNIT(*)
SI_UNIT($,.STERADIAN.)
SOLID_ANGLE_UNIT()
);
#560=(
NAMED_UNIT(*)
PLANE_ANGLE_UNIT()
SI_UNIT($,.RADIAN.)
);
#561=(
LENGTH_UNIT()
NAMED_UNIT(*)
SI_UNIT(.MILLI.,.METRE.)
);
#562=PRODUCT_DEFINITION_SHAPE('','',#563);
#563=PRODUCT_DEFINITION('','',#565,#564);
#564=PRODUCT_DEFINITION_CONTEXT('',#571,'design');
#565=PRODUCT_DEFINITION_FORMATION_WITH_SPECIFIED_SOURCE('','',#567,
 .NOT_KNOWN.);
#566=PRODUCT_RELATED_PRODUCT_CATEGORY('','',(#567));
#567=PRODUCT('T-0000341-Adapterplatte-30-Digitalanzeige-dy',
'T-0000341-Adapterplatte-30-Digitalanzeige-dy',
'T-0000341-Adapterplatte-30-Digitalanzeige-dy',(#569));
#568=PRODUCT_CATEGORY('','');
#569=PRODUCT_CONTEXT('',#571,'mechanical');
#570=APPLICATION_PROTOCOL_DEFINITION('international standard',
'automotive_design',2010,#571);
#571=APPLICATION_CONTEXT(
'core data for automotive mechanical design processes');
ENDSEC;
END-ISO-10303-21;
