ISO-10303-21;
HEADER;
/* Generated by software containing ST-Developer
 * from STEP Tools, Inc. (www.steptools.com) 
 */
/* OPTION: strings as raw bytes, not using required /X/ escapes */

FILE_DESCRIPTION(
/* description */ ('Unknown'),
/* implementation_level */ '2;1');

FILE_NAME(
/* name */ 'Spindel-M10-Grundeinheit',
/* time_stamp */ '2020-04-02T14:33:07+02:00',
/* author */ ('Unknown'),
/* organization */ ('Unknown'),
/* preprocessor_version */ 'ST-DEVELOPER v16.7',
/* originating_system */ 'Solid Edge',
/* authorisation */ 'Unknown');

FILE_SCHEMA (('AUTOMOTIVE_DESIGN {1 0 10303 214 3 1 1}'));
ENDSEC;

DATA;
#10=PROPERTY_DEFINITION_REPRESENTATION(#14,#12);
#11=PROPERTY_DEFINITION_REPRESENTATION(#15,#13);
#12=REPRESENTATION('',(#16),#422);
#13=REPRESENTATION('',(#17),#422);
#14=PROPERTY_DEFINITION('pmi validation property','',#427);
#15=PROPERTY_DEFINITION('pmi validation property','',#427);
#16=VALUE_REPRESENTATION_ITEM('number of annotations',COUNT_MEASURE(0.));
#17=VALUE_REPRESENTATION_ITEM('number of views',COUNT_MEASURE(0.));
#18=SHAPE_REPRESENTATION_RELATIONSHIP('','',#286,#19);
#19=ADVANCED_BREP_SHAPE_REPRESENTATION('',(#284),#422);
#20=PLANE('',#291);
#21=PLANE('',#293);
#22=PLANE('',#305);
#23=PLANE('',#309);
#24=PLANE('',#310);
#25=PLANE('',#311);
#26=PLANE('',#313);
#27=PLANE('',#316);
#28=ORIENTED_EDGE('',*,*,#56,.T.);
#29=ORIENTED_EDGE('',*,*,#57,.F.);
#30=ORIENTED_EDGE('',*,*,#58,.T.);
#31=ORIENTED_EDGE('',*,*,#56,.F.);
#32=ORIENTED_EDGE('',*,*,#57,.T.);
#33=ORIENTED_EDGE('',*,*,#59,.T.);
#34=ORIENTED_EDGE('',*,*,#60,.T.);
#35=ORIENTED_EDGE('',*,*,#59,.F.);
#36=ORIENTED_EDGE('',*,*,#61,.F.);
#37=ORIENTED_EDGE('',*,*,#58,.F.);
#38=ORIENTED_EDGE('',*,*,#62,.F.);
#39=ORIENTED_EDGE('',*,*,#63,.F.);
#40=ORIENTED_EDGE('',*,*,#64,.T.);
#41=ORIENTED_EDGE('',*,*,#65,.F.);
#42=ORIENTED_EDGE('',*,*,#62,.T.);
#43=ORIENTED_EDGE('',*,*,#65,.T.);
#44=ORIENTED_EDGE('',*,*,#66,.F.);
#45=ORIENTED_EDGE('',*,*,#67,.T.);
#46=ORIENTED_EDGE('',*,*,#66,.T.);
#47=ORIENTED_EDGE('',*,*,#64,.F.);
#48=ORIENTED_EDGE('',*,*,#67,.F.);
#49=ORIENTED_EDGE('',*,*,#63,.T.);
#50=ORIENTED_EDGE('',*,*,#68,.F.);
#51=ORIENTED_EDGE('',*,*,#69,.T.);
#52=ORIENTED_EDGE('',*,*,#61,.T.);
#53=ORIENTED_EDGE('',*,*,#68,.T.);
#54=ORIENTED_EDGE('',*,*,#69,.F.);
#55=ORIENTED_EDGE('',*,*,#60,.F.);
#56=EDGE_CURVE('',#70,#70,#84,.T.);
#57=EDGE_CURVE('',#71,#71,#85,.T.);
#58=EDGE_CURVE('',#72,#72,#86,.T.);
#59=EDGE_CURVE('',#73,#73,#87,.T.);
#60=EDGE_CURVE('',#74,#74,#88,.T.);
#61=EDGE_CURVE('',#75,#75,#89,.T.);
#62=EDGE_CURVE('',#76,#76,#90,.T.);
#63=EDGE_CURVE('',#77,#77,#91,.T.);
#64=EDGE_CURVE('',#78,#78,#92,.T.);
#65=EDGE_CURVE('',#79,#79,#93,.T.);
#66=EDGE_CURVE('',#80,#80,#94,.T.);
#67=EDGE_CURVE('',#81,#81,#95,.T.);
#68=EDGE_CURVE('',#82,#82,#96,.T.);
#69=EDGE_CURVE('',#83,#83,#97,.T.);
#70=VERTEX_POINT('',#380);
#71=VERTEX_POINT('',#382);
#72=VERTEX_POINT('',#385);
#73=VERTEX_POINT('',#388);
#74=VERTEX_POINT('',#391);
#75=VERTEX_POINT('',#394);
#76=VERTEX_POINT('',#397);
#77=VERTEX_POINT('',#399);
#78=VERTEX_POINT('',#402);
#79=VERTEX_POINT('',#404);
#80=VERTEX_POINT('',#408);
#81=VERTEX_POINT('',#410);
#82=VERTEX_POINT('',#415);
#83=VERTEX_POINT('',#418);
#84=CIRCLE('',#289,3.8);
#85=CIRCLE('',#290,3.8);
#86=CIRCLE('',#292,4.);
#87=CIRCLE('',#294,4.);
#88=CIRCLE('',#296,4.);
#89=CIRCLE('',#298,4.);
#90=CIRCLE('',#300,4.);
#91=CIRCLE('',#301,4.);
#92=CIRCLE('',#303,5.);
#93=CIRCLE('',#304,5.);
#94=CIRCLE('',#307,3.42140155191745);
#95=CIRCLE('',#308,3.42140155191745);
#96=CIRCLE('',#312,3.8);
#97=CIRCLE('',#314,3.8);
#98=EDGE_LOOP('',(#28));
#99=EDGE_LOOP('',(#29));
#100=EDGE_LOOP('',(#30));
#101=EDGE_LOOP('',(#31));
#102=EDGE_LOOP('',(#32));
#103=EDGE_LOOP('',(#33));
#104=EDGE_LOOP('',(#34));
#105=EDGE_LOOP('',(#35));
#106=EDGE_LOOP('',(#36));
#107=EDGE_LOOP('',(#37));
#108=EDGE_LOOP('',(#38));
#109=EDGE_LOOP('',(#39));
#110=EDGE_LOOP('',(#40));
#111=EDGE_LOOP('',(#41));
#112=EDGE_LOOP('',(#42));
#113=EDGE_LOOP('',(#43));
#114=EDGE_LOOP('',(#44));
#115=EDGE_LOOP('',(#45));
#116=EDGE_LOOP('',(#46));
#117=EDGE_LOOP('',(#47));
#118=EDGE_LOOP('',(#48));
#119=EDGE_LOOP('',(#49));
#120=EDGE_LOOP('',(#50));
#121=EDGE_LOOP('',(#51));
#122=EDGE_LOOP('',(#52));
#123=EDGE_LOOP('',(#53));
#124=EDGE_LOOP('',(#54));
#125=EDGE_LOOP('',(#55));
#126=FACE_BOUND('',#98,.T.);
#127=FACE_BOUND('',#99,.T.);
#128=FACE_BOUND('',#100,.T.);
#129=FACE_BOUND('',#101,.T.);
#130=FACE_BOUND('',#102,.T.);
#131=FACE_BOUND('',#103,.T.);
#132=FACE_BOUND('',#104,.T.);
#133=FACE_BOUND('',#105,.T.);
#134=FACE_BOUND('',#106,.T.);
#135=FACE_BOUND('',#107,.T.);
#136=FACE_BOUND('',#108,.T.);
#137=FACE_BOUND('',#109,.T.);
#138=FACE_BOUND('',#110,.T.);
#139=FACE_BOUND('',#111,.T.);
#140=FACE_BOUND('',#112,.T.);
#141=FACE_BOUND('',#113,.T.);
#142=FACE_BOUND('',#114,.T.);
#143=FACE_BOUND('',#115,.T.);
#144=FACE_BOUND('',#116,.T.);
#145=FACE_BOUND('',#117,.T.);
#146=FACE_BOUND('',#118,.T.);
#147=FACE_BOUND('',#119,.T.);
#148=FACE_BOUND('',#120,.T.);
#149=FACE_BOUND('',#121,.T.);
#150=FACE_BOUND('',#122,.T.);
#151=FACE_BOUND('',#123,.T.);
#152=FACE_BOUND('',#124,.T.);
#153=FACE_BOUND('',#125,.T.);
#154=CYLINDRICAL_SURFACE('',#288,3.8);
#155=CYLINDRICAL_SURFACE('',#295,4.);
#156=CYLINDRICAL_SURFACE('',#297,4.);
#157=CYLINDRICAL_SURFACE('',#299,4.);
#158=CYLINDRICAL_SURFACE('',#302,5.);
#159=CYLINDRICAL_SURFACE('',#306,3.42140155191745);
#160=CYLINDRICAL_SURFACE('',#315,3.8);
#161=STYLED_ITEM('',(#176),#268);
#162=STYLED_ITEM('',(#177),#269);
#163=STYLED_ITEM('',(#178),#270);
#164=STYLED_ITEM('',(#179),#271);
#165=STYLED_ITEM('',(#180),#272);
#166=STYLED_ITEM('',(#181),#273);
#167=STYLED_ITEM('',(#182),#274);
#168=STYLED_ITEM('',(#183),#275);
#169=STYLED_ITEM('',(#184),#276);
#170=STYLED_ITEM('',(#185),#277);
#171=STYLED_ITEM('',(#186),#278);
#172=STYLED_ITEM('',(#187),#279);
#173=STYLED_ITEM('',(#188),#280);
#174=STYLED_ITEM('',(#189),#281);
#175=STYLED_ITEM('',(#190),#282);
#176=PRESENTATION_STYLE_ASSIGNMENT((#191));
#177=PRESENTATION_STYLE_ASSIGNMENT((#192));
#178=PRESENTATION_STYLE_ASSIGNMENT((#193));
#179=PRESENTATION_STYLE_ASSIGNMENT((#194));
#180=PRESENTATION_STYLE_ASSIGNMENT((#195));
#181=PRESENTATION_STYLE_ASSIGNMENT((#196));
#182=PRESENTATION_STYLE_ASSIGNMENT((#197));
#183=PRESENTATION_STYLE_ASSIGNMENT((#198));
#184=PRESENTATION_STYLE_ASSIGNMENT((#199));
#185=PRESENTATION_STYLE_ASSIGNMENT((#200));
#186=PRESENTATION_STYLE_ASSIGNMENT((#201));
#187=PRESENTATION_STYLE_ASSIGNMENT((#202));
#188=PRESENTATION_STYLE_ASSIGNMENT((#203));
#189=PRESENTATION_STYLE_ASSIGNMENT((#204));
#190=PRESENTATION_STYLE_ASSIGNMENT((#205));
#191=SURFACE_STYLE_USAGE(.BOTH.,#206);
#192=SURFACE_STYLE_USAGE(.BOTH.,#207);
#193=SURFACE_STYLE_USAGE(.BOTH.,#208);
#194=SURFACE_STYLE_USAGE(.BOTH.,#209);
#195=SURFACE_STYLE_USAGE(.BOTH.,#210);
#196=SURFACE_STYLE_USAGE(.BOTH.,#211);
#197=SURFACE_STYLE_USAGE(.BOTH.,#212);
#198=SURFACE_STYLE_USAGE(.BOTH.,#213);
#199=SURFACE_STYLE_USAGE(.BOTH.,#214);
#200=SURFACE_STYLE_USAGE(.BOTH.,#215);
#201=SURFACE_STYLE_USAGE(.BOTH.,#216);
#202=SURFACE_STYLE_USAGE(.BOTH.,#217);
#203=SURFACE_STYLE_USAGE(.BOTH.,#218);
#204=SURFACE_STYLE_USAGE(.BOTH.,#219);
#205=SURFACE_STYLE_USAGE(.BOTH.,#220);
#206=SURFACE_SIDE_STYLE('',(#221));
#207=SURFACE_SIDE_STYLE('',(#222));
#208=SURFACE_SIDE_STYLE('',(#223));
#209=SURFACE_SIDE_STYLE('',(#224));
#210=SURFACE_SIDE_STYLE('',(#225));
#211=SURFACE_SIDE_STYLE('',(#226));
#212=SURFACE_SIDE_STYLE('',(#227));
#213=SURFACE_SIDE_STYLE('',(#228));
#214=SURFACE_SIDE_STYLE('',(#229));
#215=SURFACE_SIDE_STYLE('',(#230));
#216=SURFACE_SIDE_STYLE('',(#231));
#217=SURFACE_SIDE_STYLE('',(#232));
#218=SURFACE_SIDE_STYLE('',(#233));
#219=SURFACE_SIDE_STYLE('',(#234));
#220=SURFACE_SIDE_STYLE('',(#235));
#221=SURFACE_STYLE_FILL_AREA(#236);
#222=SURFACE_STYLE_FILL_AREA(#237);
#223=SURFACE_STYLE_FILL_AREA(#238);
#224=SURFACE_STYLE_FILL_AREA(#239);
#225=SURFACE_STYLE_FILL_AREA(#240);
#226=SURFACE_STYLE_FILL_AREA(#241);
#227=SURFACE_STYLE_FILL_AREA(#242);
#228=SURFACE_STYLE_FILL_AREA(#243);
#229=SURFACE_STYLE_FILL_AREA(#244);
#230=SURFACE_STYLE_FILL_AREA(#245);
#231=SURFACE_STYLE_FILL_AREA(#246);
#232=SURFACE_STYLE_FILL_AREA(#247);
#233=SURFACE_STYLE_FILL_AREA(#248);
#234=SURFACE_STYLE_FILL_AREA(#249);
#235=SURFACE_STYLE_FILL_AREA(#250);
#236=FILL_AREA_STYLE('',(#251));
#237=FILL_AREA_STYLE('',(#252));
#238=FILL_AREA_STYLE('',(#253));
#239=FILL_AREA_STYLE('',(#254));
#240=FILL_AREA_STYLE('',(#255));
#241=FILL_AREA_STYLE('',(#256));
#242=FILL_AREA_STYLE('',(#257));
#243=FILL_AREA_STYLE('',(#258));
#244=FILL_AREA_STYLE('',(#259));
#245=FILL_AREA_STYLE('',(#260));
#246=FILL_AREA_STYLE('',(#261));
#247=FILL_AREA_STYLE('',(#262));
#248=FILL_AREA_STYLE('',(#263));
#249=FILL_AREA_STYLE('',(#264));
#250=FILL_AREA_STYLE('',(#265));
#251=FILL_AREA_STYLE_COLOUR('',#266);
#252=FILL_AREA_STYLE_COLOUR('',#266);
#253=FILL_AREA_STYLE_COLOUR('',#266);
#254=FILL_AREA_STYLE_COLOUR('',#266);
#255=FILL_AREA_STYLE_COLOUR('',#266);
#256=FILL_AREA_STYLE_COLOUR('',#266);
#257=FILL_AREA_STYLE_COLOUR('',#267);
#258=FILL_AREA_STYLE_COLOUR('',#266);
#259=FILL_AREA_STYLE_COLOUR('',#266);
#260=FILL_AREA_STYLE_COLOUR('',#266);
#261=FILL_AREA_STYLE_COLOUR('',#266);
#262=FILL_AREA_STYLE_COLOUR('',#266);
#263=FILL_AREA_STYLE_COLOUR('',#266);
#264=FILL_AREA_STYLE_COLOUR('',#266);
#265=FILL_AREA_STYLE_COLOUR('',#266);
#266=COLOUR_RGB('',0.331739127635956,0.340869575738907,0.349999994039536);
#267=COLOUR_RGB('',0.1875,0.75,0.581249892711639);
#268=ADVANCED_FACE('',(#126,#127),#154,.T.);
#269=ADVANCED_FACE('',(#128,#129),#20,.T.);
#270=ADVANCED_FACE('',(#130,#131),#21,.T.);
#271=ADVANCED_FACE('',(#132,#133),#155,.T.);
#272=ADVANCED_FACE('',(#134,#135),#156,.T.);
#273=ADVANCED_FACE('',(#136,#137),#157,.T.);
#274=ADVANCED_FACE('',(#138,#139),#158,.T.);
#275=ADVANCED_FACE('',(#140,#141),#22,.T.);
#276=ADVANCED_FACE('',(#142,#143),#159,.T.);
#277=ADVANCED_FACE('',(#144,#145),#23,.F.);
#278=ADVANCED_FACE('',(#146),#24,.F.);
#279=ADVANCED_FACE('',(#147,#148),#25,.T.);
#280=ADVANCED_FACE('',(#149,#150),#26,.T.);
#281=ADVANCED_FACE('',(#151,#152),#160,.T.);
#282=ADVANCED_FACE('',(#153),#27,.T.);
#283=CLOSED_SHELL('',(#268,#269,#270,#271,#272,#273,#274,#275,#276,#277,
#278,#279,#280,#281,#282));
#284=MANIFOLD_SOLID_BREP('',#283);
#285=SHAPE_DEFINITION_REPRESENTATION(#427,#286);
#286=SHAPE_REPRESENTATION('Spindel-M10-Grundeinheit-dy',(#287),#422);
#287=AXIS2_PLACEMENT_3D('',#377,#317,#318);
#288=AXIS2_PLACEMENT_3D('',#378,#319,#320);
#289=AXIS2_PLACEMENT_3D('',#379,#321,#322);
#290=AXIS2_PLACEMENT_3D('',#381,#323,#324);
#291=AXIS2_PLACEMENT_3D('',#383,#325,#326);
#292=AXIS2_PLACEMENT_3D('',#384,#327,#328);
#293=AXIS2_PLACEMENT_3D('',#386,#329,#330);
#294=AXIS2_PLACEMENT_3D('',#387,#331,#332);
#295=AXIS2_PLACEMENT_3D('',#389,#333,#334);
#296=AXIS2_PLACEMENT_3D('',#390,#335,#336);
#297=AXIS2_PLACEMENT_3D('',#392,#337,#338);
#298=AXIS2_PLACEMENT_3D('',#393,#339,#340);
#299=AXIS2_PLACEMENT_3D('',#395,#341,#342);
#300=AXIS2_PLACEMENT_3D('',#396,#343,#344);
#301=AXIS2_PLACEMENT_3D('',#398,#345,#346);
#302=AXIS2_PLACEMENT_3D('',#400,#347,#348);
#303=AXIS2_PLACEMENT_3D('',#401,#349,#350);
#304=AXIS2_PLACEMENT_3D('',#403,#351,#352);
#305=AXIS2_PLACEMENT_3D('',#405,#353,#354);
#306=AXIS2_PLACEMENT_3D('',#406,#355,#356);
#307=AXIS2_PLACEMENT_3D('',#407,#357,#358);
#308=AXIS2_PLACEMENT_3D('',#409,#359,#360);
#309=AXIS2_PLACEMENT_3D('',#411,#361,#362);
#310=AXIS2_PLACEMENT_3D('',#412,#363,#364);
#311=AXIS2_PLACEMENT_3D('',#413,#365,#366);
#312=AXIS2_PLACEMENT_3D('',#414,#367,#368);
#313=AXIS2_PLACEMENT_3D('',#416,#369,#370);
#314=AXIS2_PLACEMENT_3D('',#417,#371,#372);
#315=AXIS2_PLACEMENT_3D('',#419,#373,#374);
#316=AXIS2_PLACEMENT_3D('',#420,#375,#376);
#317=DIRECTION('',(0.,0.,1.));
#318=DIRECTION('',(1.,0.,0.));
#319=DIRECTION('',(0.,-1.,0.));
#320=DIRECTION('',(0.,0.,-1.));
#321=DIRECTION('',(0.,-1.,0.));
#322=DIRECTION('',(0.,0.,-1.));
#323=DIRECTION('',(0.,-1.,0.));
#324=DIRECTION('',(0.,0.,-1.));
#325=DIRECTION('',(0.,-1.,0.));
#326=DIRECTION('',(0.,0.,-1.));
#327=DIRECTION('',(0.,-1.,0.));
#328=DIRECTION('',(0.,0.,-1.));
#329=DIRECTION('',(0.,1.,0.));
#330=DIRECTION('',(0.,0.,1.));
#331=DIRECTION('',(0.,1.,0.));
#332=DIRECTION('',(0.,0.,1.));
#333=DIRECTION('',(0.,-1.,0.));
#334=DIRECTION('',(0.,0.,-1.));
#335=DIRECTION('',(0.,1.,0.));
#336=DIRECTION('',(1.,0.,0.));
#337=DIRECTION('',(0.,-1.,0.));
#338=DIRECTION('',(0.,0.,-1.));
#339=DIRECTION('',(0.,1.,0.));
#340=DIRECTION('',(0.,0.,1.));
#341=DIRECTION('',(0.,-1.,0.));
#342=DIRECTION('',(0.,0.,-1.));
#343=DIRECTION('',(0.,1.,0.));
#344=DIRECTION('',(1.,0.,0.));
#345=DIRECTION('',(0.,-1.,0.));
#346=DIRECTION('',(0.,0.,-1.));
#347=DIRECTION('',(0.,-1.,0.));
#348=DIRECTION('',(0.,0.,-1.));
#349=DIRECTION('',(0.,-1.,0.));
#350=DIRECTION('',(-1.,0.,0.));
#351=DIRECTION('',(0.,-1.,0.));
#352=DIRECTION('',(1.,0.,0.));
#353=DIRECTION('',(0.,-1.,0.));
#354=DIRECTION('',(0.,0.,-1.));
#355=DIRECTION('',(0.,1.,0.));
#356=DIRECTION('',(0.,0.,1.));
#357=DIRECTION('',(0.,-1.,0.));
#358=DIRECTION('',(-1.,0.,0.));
#359=DIRECTION('',(0.,-1.,0.));
#360=DIRECTION('',(-1.,0.,0.));
#361=DIRECTION('',(0.,-1.,0.));
#362=DIRECTION('',(0.,0.,-1.));
#363=DIRECTION('',(0.,-1.,0.));
#364=DIRECTION('',(0.,0.,-1.));
#365=DIRECTION('',(0.,-1.,0.));
#366=DIRECTION('',(0.,0.,-1.));
#367=DIRECTION('',(0.,-1.,0.));
#368=DIRECTION('',(0.,0.,-1.));
#369=DIRECTION('',(0.,1.,0.));
#370=DIRECTION('',(0.,0.,1.));
#371=DIRECTION('',(0.,-1.,0.));
#372=DIRECTION('',(0.,0.,-1.));
#373=DIRECTION('',(0.,-1.,0.));
#374=DIRECTION('',(0.,0.,-1.));
#375=DIRECTION('',(0.,-1.,0.));
#376=DIRECTION('',(0.,0.,-1.));
#377=CARTESIAN_POINT('',(0.,0.,0.));
#378=CARTESIAN_POINT('',(0.,2.4,0.));
#379=CARTESIAN_POINT('',(0.,52.25,0.));
#380=CARTESIAN_POINT('',(0.,52.25,-3.8));
#381=CARTESIAN_POINT('',(0.,51.35,0.));
#382=CARTESIAN_POINT('',(0.,51.35,-3.8));
#383=CARTESIAN_POINT('',(0.,52.25,3.8));
#384=CARTESIAN_POINT('',(0.,52.25,0.));
#385=CARTESIAN_POINT('',(0.,52.25,-4.));
#386=CARTESIAN_POINT('',(0.,51.35,4.65457289458739));
#387=CARTESIAN_POINT('',(0.,51.35,0.));
#388=CARTESIAN_POINT('',(0.,51.35,4.));
#389=CARTESIAN_POINT('',(0.,60.,0.));
#390=CARTESIAN_POINT('',(0.,0.,0.));
#391=CARTESIAN_POINT('',(4.,0.,0.));
#392=CARTESIAN_POINT('',(0.,63.,0.));
#393=CARTESIAN_POINT('',(0.,53.15,0.));
#394=CARTESIAN_POINT('',(0.,53.15,4.));
#395=CARTESIAN_POINT('',(0.,63.,0.));
#396=CARTESIAN_POINT('',(0.,63.,0.));
#397=CARTESIAN_POINT('',(4.,63.,0.));
#398=CARTESIAN_POINT('',(0.,54.05,0.));
#399=CARTESIAN_POINT('',(0.,54.05,-4.));
#400=CARTESIAN_POINT('',(0.,203.,0.));
#401=CARTESIAN_POINT('',(0.,258.,0.));
#402=CARTESIAN_POINT('',(-5.,258.,0.));
#403=CARTESIAN_POINT('',(0.,63.,0.));
#404=CARTESIAN_POINT('',(5.,63.,0.));
#405=CARTESIAN_POINT('',(0.,63.,0.));
#406=CARTESIAN_POINT('',(0.,246.951933866711,0.));
#407=CARTESIAN_POINT('',(0.,258.,0.));
#408=CARTESIAN_POINT('',(-3.42140155191745,258.,0.));
#409=CARTESIAN_POINT('',(0.,268.,0.));
#410=CARTESIAN_POINT('',(-3.42140155191745,268.,0.));
#411=CARTESIAN_POINT('',(0.,258.,0.));
#412=CARTESIAN_POINT('',(0.,268.,0.));
#413=CARTESIAN_POINT('',(0.,54.05,3.8));
#414=CARTESIAN_POINT('',(0.,54.05,0.));
#415=CARTESIAN_POINT('',(0.,54.05,-3.8));
#416=CARTESIAN_POINT('',(0.,53.15,4.65457289458739));
#417=CARTESIAN_POINT('',(0.,53.15,0.));
#418=CARTESIAN_POINT('',(0.,53.15,-3.8));
#419=CARTESIAN_POINT('',(0.,4.2,0.));
#420=CARTESIAN_POINT('',(0.,0.,0.));
#421=MECHANICAL_DESIGN_GEOMETRIC_PRESENTATION_REPRESENTATION('',(#161,#162,
#163,#164,#165,#166,#167,#168,#169,#170,#171,#172,#173,#174,#175),#422);
#422=(
GEOMETRIC_REPRESENTATION_CONTEXT(3)
GLOBAL_UNCERTAINTY_ASSIGNED_CONTEXT((#423))
GLOBAL_UNIT_ASSIGNED_CONTEXT((#426,#425,#424))
REPRESENTATION_CONTEXT('Spindel-M10-Grundeinheit-dy',
'TOP_LEVEL_ASSEMBLY_PART')
);
#423=UNCERTAINTY_MEASURE_WITH_UNIT(LENGTH_MEASURE(0.005),#426,
'DISTANCE_ACCURACY_VALUE','Maximum Tolerance applied to model');
#424=(
NAMED_UNIT(*)
SI_UNIT($,.STERADIAN.)
SOLID_ANGLE_UNIT()
);
#425=(
NAMED_UNIT(*)
PLANE_ANGLE_UNIT()
SI_UNIT($,.RADIAN.)
);
#426=(
LENGTH_UNIT()
NAMED_UNIT(*)
SI_UNIT(.MILLI.,.METRE.)
);
#427=PRODUCT_DEFINITION_SHAPE('','',#428);
#428=PRODUCT_DEFINITION('','',#430,#429);
#429=PRODUCT_DEFINITION_CONTEXT('',#436,'design');
#430=PRODUCT_DEFINITION_FORMATION_WITH_SPECIFIED_SOURCE('','',#432,
 .NOT_KNOWN.);
#431=PRODUCT_RELATED_PRODUCT_CATEGORY('','',(#432));
#432=PRODUCT('Spindel-M10-Grundeinheit-dy',
'Spindel-M10-Grundeinheit-dy','Spindel-M10-Grundeinheit-dy',(#434));
#433=PRODUCT_CATEGORY('','');
#434=PRODUCT_CONTEXT('',#436,'mechanical');
#435=APPLICATION_PROTOCOL_DEFINITION('international standard',
'automotive_design',2010,#436);
#436=APPLICATION_CONTEXT(
'core data for automotive mechanical design processes');
ENDSEC;
END-ISO-10303-21;
